RoCK_ForumS

RoCK_ForumS'a Hoş GeLDiniZ
 
AnasayfaPortalliSSSAramaKayıt OlÜye ListesiKullanıcı GruplarıGiriş yap

Paylaş | 
 

 Şebnem FERAH Akorları

Önceki başlık Sonraki başlık Aşağa gitmek 
YazarMesaj
RoCK_ForumS Yetkilisi
Admin
Admin
avatar

Mesaj Sayısı : 75
Yaş : 29
Kayıt tarihi : 14/07/07

MesajKonu: Şebnem FERAH Akorları   Paz Tem. 15, 2007 2:26 pm

id: 3950
hit: 5
singer: şebem ferah
song: yeniden doğup gelsem
akor:

A
Al beni istersen sevgim icinde
A Bb C
Gökyüzüm masmavi cigliklar gökyüzünde
A
Al beni yanina dünyadan koru
A Bb C
Yeniden ögret dünyadaki yolu tanrim
Dm Dm
Hayalim var, ümidim cok
Dm Dm
Sebebim var, dönüsüm yok
A F G A
Yeniden dogup gelsem cocuk kalip büyümezdim
A F G A
Acilan penceremden yine seni severdim
A
Al beni istersen sevgim icinde
A Bb C
Gökyüzüm masmavi cigliklar gökyüzünde
A
Al beni istersen korkum icinde
A Bb C
Umudum isyanlar isyanim karanliktan

Yeniden doğup gelsem
Sayfa başına dön Aşağa gitmek
Kullanıcı profilini gör http://rockforums.forumotion.com
RoCK_ForumS Yetkilisi
Admin
Admin
avatar

Mesaj Sayısı : 75
Yaş : 29
Kayıt tarihi : 14/07/07

MesajKonu: Geri: Şebnem FERAH Akorları   Paz Tem. 15, 2007 2:26 pm

id: 3949
hit: 9
singer: şebnem ferah
song: sigara intro tab
akor:

Tuning: e: h hammer on-pull up
B: / slide up
G: \ slide down
D: x palm mute
A: r release
E:

Intro:

Dm... clean tone-echo
e)-----------------------|-----------------------|
B)-----------------------|-----------------------|
G)-9h10-9-----10-9-------|-9h10-9-----12--10--9--|
D)--------10---------10--|---------10------------|
A)-----------------------|-----------------------|
E)-----------------------|-----------------------|

------------------------------|
------------------------------|
-9h10-9-----------------------|
---------10-12h14-12-10-10/12-|
------------------------------|
------------------------------|

Verse1:
Dm C |
e)--------1--0--|-----------3---|
B)--------------|---------------|
G)-----2--------|--------0------|
D)--0-----------|-----2---------|
A)--------------|--3------------|
E)--------------|---------------|

solo
---------5--3-----3--------------3----------
---------------6-----6--5---5-6-----6----5--
--------------------------------------------
--0-----------------------------------------
--------------------------------------------
--------------------------------------------

Verse2:
| C Dm
e)----------|--------------3--|--------------5--|
B)----------|-----------5-----|-----------6-(5)-|
G)--5----3--|--------5--------|--------7--------|
D)----------|-----5-----------|-----7-----------|
A)----------|--3--------------|--5--------------|
E)----------|-----------------|-----------------|

Pre-chorus: =>Distorted

D5 C5 C5
e)------------------------------|
B)------------------------------|
G)---7x7x7r----5x5x5r----5x5x5--|
D)---7x7x7r----5x5x5r----5x5x5--|
A)---5x5x5r----3x3x3r----3x3x3--|
E)------------------------------|

F5 D5 C5
-------------------|------------------------|
-------6-------8r--|------------------------|
-------7-------9r--|----------7x7x7r--5x5x5-|
-------------------|-3x3x3r---7x7x7r--5x5x5-| -
--3-5-----5/7------|-3x3x3r---5x5x5r--3x3x3-|
-------------------|-1x1x1r-----------------|

e)-----------------------------------|
B)-----------------------------------|
G)-----------------------------------|
D)-------7-------------12/14----10---|
A)--/5--------5/10-----10/12----8----|
E)-----------------------------------|


Dm...... C..
-----------------------|---------------|
-outro.->>>--intro-----|---------------|
-----------------------|---------------|
-----------------------|---------------|
-----------------------|---------------|
-----------------------|---------------|
Sayfa başına dön Aşağa gitmek
Kullanıcı profilini gör http://rockforums.forumotion.com
RoCK_ForumS Yetkilisi
Admin
Admin
avatar

Mesaj Sayısı : 75
Yaş : 29
Kayıt tarihi : 14/07/07

MesajKonu: Geri: Şebnem FERAH Akorları   Paz Tem. 15, 2007 2:27 pm

id: 3936
hit: 16
singer: şebnem ferah
song: gözlerimin etrafındaki çizgiler (akor)
akor:

Am Asus4
Gözlerimin etrafindaki çizgiler
Am Asus4
Artik belli oluyor
Am Asus4
Bütün o çizgiler son bir yilda oldu
Am Asus4
Sana, bana, bize aglarken...
Am Asus4
Ben Leyla olmusum kimin umrunda
Am Asus4
Mecnun çoktan gitmisken
Am Asus4
Bu ne garip bir yangindi böyle
Am Asus4
Sen söndün ben yanarken
Dm Bbmaj7
Peki ben neden halâ böyleyim
Bmin7b5
Neden halâ geçmisteyim
E7
Belki de... Ben sana halâ...

/ Am \
| Asigim... |
| F |
| Iste tam burda karsindayim |
| Dm |
| Ya simdi tut elimden |
| E |
| Ya da bir daha sözetme özlemekten |
/ Am \
\ Ben sana halâ asigim /
| F |
| Iste tam burda karsindayim |
| Dm |
| Ya simdi tut elimden |
| E7 |
| Ya da bir daha sözetme özlemekten |
| Am |
\ Çok çok çok karisigim zaten... /

Am Asus4
Ruhum iki ucun arasinda
Am Asus4
Gezinip duruyor
Am Asus4
Bugün zaman akmasin dursun
Am Asus4
Ben içinden geçecegim...
Dm Bbmaj7
Ama neden, neden halâ böyleyim
Bmin7b5
Neden halâ geçmisteyim
E7
Belki de... Ben sana halâ...

/ Am \
| Asigim... |
| F |
| Iste tam burda karsindayim |
| Dm |
| Ya simdi tut elimden |
| E |
| Ya da bir daha sözetme özlemekten |
/ Am \
\ Ben sana halâ asigim /
| F |
| Iste tam burda karsindayim |
| Dm |
| Ya simdi tut elimden |
| E |
| Ya da bir daha sözetme özlemekten |
| Am |
\ Çok çok çok karisigim zaten... /

E7
Ben sana halâ...

/ Am \
| Asigim... |
| F |
| Iste tam burda karsindayim |
| Dm |
| Ya simdi tut elimden |
| E |
| Ya da bir daha sözetme özlemekten |
/ Am \
\ Ben sana halâ asigim /
| F |
| Iste tam burda karsindayim |
| Dm |
| Ya simdi tut elimden |
| E7 |
| Ya da bir daha sözetme özlemekten |
| Am |
\ Çok çok çok karisigim zaten... /
Sayfa başına dön Aşağa gitmek
Kullanıcı profilini gör http://rockforums.forumotion.com
RoCK_ForumS Yetkilisi
Admin
Admin
avatar

Mesaj Sayısı : 75
Yaş : 29
Kayıt tarihi : 14/07/07

MesajKonu: Geri: Şebnem FERAH Akorları   Paz Tem. 15, 2007 2:27 pm

id: 3945
hit: 6
singer: şebnem ferah
song: okyanus
akor:

intro
clean
E----------------------------------------|------------------||
B-------10-----9-------------------------|---------10-----9-||
G-----7----7------7----10-------9/10-9---|-----7------7-----||
D---0--------0------8-----0--------------|---0---0-----0----||
A-0-------------------------0------------|-0----------------||
E----------------------------------------|------------------||
(------- X 3 -------) son bölüm...

ilp
(intro ile birlikte distortion)
E-------------------------------------------------------------
B-------------------------------------------------------------
G----------------------------5/7-6v---------------------------
D----6-7---------------6-7---5/7---------6-7------------------
A-5--6-7-8-5-7/8-7---5-6-7-8----------5--6-7-8-5-7/8-7--5-8-5-
E-5------8-5-7/8-7---5-----8----------5------8-5-7/8-7--5-8-5-



(Gitar X)
E--------------------------------------
B--------------------------------------
G--------------------------------------
D----6-7---------------6-7-------------
A-5--6-7-8-5-7/8-7---5-6-7-8-5-7/8-7---
E-5------8-5-7/8-7---5-----8-5-7/8-7---

(Gitar Z)
E-------------------------------------------------------------
B-------------------------------------------------------------
G-------------------------------------------------------------
D----------7-7-7---------------------7-7-7-----------7-7-7----
A-5-5--5-5-6-6-6/7-5-5--5-5--5-5-5-5-6-6-6/7-5-5-5-5-6-6-6/7--
E-5-5--5-5---------5-5--5-5--5-5-5-5---------5-5-5-5----------
Önümde agir...

***Gitar X

***Gitar Z
Iste o an biri geliyor,
Tutuyor kulagimdan,
Gözü anahtar deliginde
"Bak" diyor sadece burdan,

***Gitar X

(Gitar Y)
E-----------------------------------|---------------------------||
B-----------------------------------|---------------------------||
G-----------------------------------|---------------------------||
D-----------------------------------|---------------------------||
A-7-7-X-7-7-X-7-7--3-3-X-3-3-X-3-3--|-7-5-7-5-7-5-7-5-7-5-7-5-8-||
E-5-5-X-5-5-X-5-5--1-1-X-1-1-X-1-1--|-7-5-7-5-7-5-7-5-7-5-7-5-8-||
"Birak" diyorum......... ....bilegimi şimdi..


***Gitar Z
önümde ağır bir ......


***Gitar Y
"Bak" diyorum koca......



E-----------------------------------------------------------
B-----------------------------------------------------------
G-----------------------------------------------------------
D-7-X-X-X-X-7-X-X-X-X-7-X-X-X--7-X-X-X-X-7-X-X-X-X-7-X-X-X--
A-5-X-X-X-X-5-X-X-X-X-7-X-X-X--5-X-X-X-X-5-X-X-X-X-7-X-X-X--
E-5-X-X-X-X-5-X-X-X-X-5-X-X-X--5-X-X-X-X-5-X-X-X-X-5-X-X-X--
Bir ileri bir geri her adim bu..

E-----------------------------------------------------------
B-----------------------------------------------------------
G-----------------------------------------------------------
D-5-X-X-X-X-5-X-X-X-X-5-X-X-X--5-X-X-X-X-5-X-X-X-X-5-X-X-X--
A-3-X-X-X-X-3-X-X-X-X-3-X-X-X--3-X-X-X-X-3-X-X-X-X-5-X-X-X--
E-3-X-X-X-X-3-X-X-X-X-3-X-X-X--3-X-X-X-X-3-X-X-X-X-3-X-X-X--
kapının ardi demek..

E-----------------------------------------------------------
B-----------------------------------------------------------
G-----------------------------------------------------------
D-3-X-X-X-X-3-X-X-X-X-3-X-X-X--3-X-X-X-X-3-X-X-X-X-3-X-X-X--
A-1-X-X-X-X-1-X-X-X-X-1-X-X-X--1-X-X-X-X-1-X-X-X-X-1-X-X-X--
E-1-X-X-X-X-1-X-X-X-X-1-X-X-X--1-X-X-X-X-1-X-X-X-X-1-X-X-X--
Sonunda bogulmak olsa da Benim o sularda

E-----------------------------------------------------------
B-----------------------------------------------------------
G-----------------------------------------------------------
D-5-X-X-X-X-5-X-X-X-X-5-X-X-X--5-X-X-X-X-5-X-X-X-X-5-X-X-X--
A-3-X-X-X-X-3-X-X-X-X-3-X-X-X--3-X-X-X-X-3-X-X-X-X-5-X-X-X--
E-3-X-X-X-X-3-X-X-X-X-3-X-X-X--3-X-X-X-X-3-X-X-X-X-3-X-X-X--
yüzmem gerek

-------------------
-8v-8-9-6-8-6------
--------------5-7--
-------------------
-------------------
-------------------

Anahtar deliginden görünen
Bu küçük manzara sana yetiyorsa, yetsin
Benim o sularda yüzmem gerek.
Yüzmem gerek...
Sayfa başına dön Aşağa gitmek
Kullanıcı profilini gör http://rockforums.forumotion.com
RoCK_ForumS Yetkilisi
Admin
Admin
avatar

Mesaj Sayısı : 75
Yaş : 29
Kayıt tarihi : 14/07/07

MesajKonu: Geri: Şebnem FERAH Akorları   Paz Tem. 15, 2007 2:31 pm

id: 4902
hit: 5
singer: şebnem ferah
song: ben bir mülteciyim
akor:

Bm
Cm
Ben bir mülteciyim, kendi yüreğimden başka
Bm Am
Sığınacak yerim yok, yurdum yok
Bm Cm
Ben bir mülteciyim, yüreğime sığındım
Bm Am
Burda savaş çıksa bile, ölen yok

Cm Bm
Tüm hayallerin, sonsuzluğa
Gm Gm
Ve sona erebildiği yerdeyim
Cm Bm
Tüm niyetlerin, nedenleri varmışçasına
Gm Gm
Görülebildiği bir yerdeyim

Em Bm Cm ı
Ben bir mülteciyim, yüreğimde yaşıyorum ı
Am Em ı
Esir değil kul hiç değil, kendimde yaşıyorum ı
Em Bm Cm ı n
Ben bir mülteciyim, burda aslında sınır yok ı
Am Ebm Cm Bm ı
Kazanmak kaybetmek yok, bu yüzden ı
Am Em ı
Daha büyük güç yok ı

Bm Cm
Artık eminim her şey içimde filizlenir
Bm Am
İstersem büyüyor, bakmazsam çürüyor
Cm Bm
Aşil topuğum aşktı, başka yüreklerde
Gm Gm
Mutlu olmadım, yaşayamadım
Cm Bm
Oysa içimde ne ok var ne de atan
Gm Gm Em
Ne yön ne arka ön, ister yaşa ister sön

Nakarat

Bm Cm
Ben bir mülteciyim, kendi yüreğimden başka
Bm
Am
Sığınacak yerim yok, yurdum yok
Cm Bm
Tüm kitapların arasında kurutulup saklanan
Gm Gm
Anılarla dolu bir yerdeyim
Cm Bm
Tüm sözcüklerin cümlelerden kurtulmuş gibi
Gm Gm
İncitmeden özgür kalabildiği yerdeyim
Sayfa başına dön Aşağa gitmek
Kullanıcı profilini gör http://rockforums.forumotion.com
RoCK_ForumS Yetkilisi
Admin
Admin
avatar

Mesaj Sayısı : 75
Yaş : 29
Kayıt tarihi : 14/07/07

MesajKonu: Geri: Şebnem FERAH Akorları   Paz Tem. 15, 2007 2:36 pm

id: 4495
hit: 5
singer: Şebnem Ferah
song: Çakıl Taşları
akor:

Em F G F
Benim çakıl taşlarım var irili ufaklı
Em F G F
Kaybolduğumda yere yayıp yol yaptığım
Em F G F
Çakıl taşlarım var her yerden topladığım
Em F G F
Boşluğa düştüğümde oyunlar yaratıp oynadığım

Em F G F
Benim bir sözlüğüm var unutulmuş bir dil
Em F G F
Oysa ki içinde her şeyin anlamı gizli
Em F G F
Benim bir gözlüğüm var sol camı kırıldı
Em F G F Am
Taktığım zamanlarda içini gösteren adeta

Em F G F
Sen hiç hiç oldun mu, birden duruldun mu
Em F G F
Bulanıkmış berrakmış her suyu içtin mi
Em F G G
Altında ağ olmadan yerden yükseldin mi
Em F G F Em F G
Tam zevkine varmışken birden yere düştün mü sen
F Em F G
Düştün mü sen

Em F G F
Benim hiç boyanmamış dört duvarım var
Em F G F
Çatlaklarından sızıp içinden geçtiğim
Em F G F
Benim hiç yıkılmamış duvarlarım var
Em F G F Am
Dikkatle baktığımda ardını gördüğüm adeta

Em F G F
Sen hiç hiç oldun mu, birden duruldun mu
Em F G F
Bulanıkmış berrakmış her suyu içtin mi
Em F G G
Altında ağ olmadan yerden yükseldin mi
Em F G F Em F G
Tam zevkine varmışken birden yere düştün mü sen
F Em F G
Düştün mü sen

Em F G F
Benim bir hikayem var sonunu yazmadığım
Em F G F
Benim bir sevgilim var henüz tanışmadığım
Em F G F
Benim umudum var benim umudum
Em F G F
Benim umudum var benim umudum

Em F G F
Sen hiç hiç oldun mu, birden duruldun mu
Em F G F
Bulanıkmış berrakmış her suyu içtin mi
Em F G G
Altında ağ olmadan yerden yükseldin mi
Em F G F Em F G
Tam zevkine varmışken birden yere düştün mü sen
F Em F G
Düştün mü sen

Em F G F
Sen hiç hiç oldun mu, birden duruldun mu
Em F G F
Bulanıkmış berrakmış her suyu içtin mi
Em F G G
Altında ağ olmadan yerden yükseldin mi
Em F G F Em F G
Tam zevkine varmışken birden yere düştün mü sen
F Em F G
Düştün mü sen
Sayfa başına dön Aşağa gitmek
Kullanıcı profilini gör http://rockforums.forumotion.com
 
Şebnem FERAH Akorları
Önceki başlık Sonraki başlık Sayfa başına dön 
1 sayfadaki 1 sayfası
 Similar topics
-
» İsmail yk- Eskisi Gibi Gitar Akorları...
» Şebne Keskin-Mutlumusun? ( YARIŞMADA OLMAYAN)

Bu forumun müsaadesi var:Bu forumdaki mesajlara cevap veremezsiniz
RoCK_ForumS :: TÜRK ROCK :: Türk Rock Şarkı Sözleri ve Akorlar-
Buraya geçin: