RoCK_ForumS

RoCK_ForumS'a Hoş GeLDiniZ
 
AnasayfaPortalliSSSAramaKayıt OlÜye ListesiKullanıcı GruplarıGiriş yap

Paylaş | 
 

 Gripin Akorları

Önceki başlık Sonraki başlık Aşağa gitmek 
YazarMesaj
RoCK_ForumS Yetkilisi
Admin
Admin
avatar

Mesaj Sayısı : 75
Yaş : 29
Kayıt tarihi : 14/07/07

MesajKonu: Gripin Akorları   Paz Tem. 15, 2007 6:36 pm

Elalem TAB
Gripin
Elalem

e------------------------------|--------------->
------------------------------|------------------>
------------------------------|-----------------------------,,> "İNTRO"
------------------------------|----99999--------------------''> "İNTRO"
------666--5------------------|----77777----------------->
E--4-----------77--6--7--------|--------------->

GELL güzelim .............


e----------------|----------------------------------
-----------------|----------------------------------
-----------------|----------------------------------
-9999--5s666666--|-9--------------------------------
-7777--7s888888--|-7--------------------------------
E----------------|----------------------------------
...GeLsinbiri gitsin biri................


---------------------------------------------------
---------------------------------------------------
---------------------------------------------------
--13-13-13--999---5S6666---------------------------
--11-11-11--777---7S8888------9--------------------
------------------------------7--------------------

mUtlu OLmak senin elinde unutmaa.....


soNdAkİ >< SOLO
e---------------------------------------------------
----------------------------------------------------
--66/13-12--66/13-12--------------------------------
-----------------------11-11/14-13--11-11/14--13----
----------------------------------------------------
E---------------------------------------------------
=============================================================================




Elalem
Gripin
Am C E
Gel güzelim
Am C E
Aç gözünü
Am C E
Elalemi baştan çıkar
Am C E ) 4
Yalnızlığın tadını çıkar
F C
Zor olsa da
Dm C
Maziyi unutamasan da
Dm E
Geçicek hepsi kafana takma

Am F Dm E
Mutlu olmak senin elinde unutma
Am F Dm E
Kıymet bilmez onlar aldanma yorulma

Am C E
Gel güzelim
Am C E
Aç gönlünü
Am C E
Girmiş kanıma bi kere zehir
Am C E
Çıkmaz artık kolay değil
Am C E
Gelsin biri gitsin biri
Am C E
Unutsam gelmişi geçmişi
Am C E
Gelsin biri gitsin biri
Am C E
Unutsam gelmişi geçmişi
Am C E
Gelsin biri gitsin biri
Am C E
Sikicem gelmişi geçmişi

F E Dm E
Zor olsa da maziyi unutamasan da
Dm E

Geçicek hepsi kafana takma

Am F Dm E
Mutlu olmak senin elinde unutma
Am F Dm E ) 2
Kıymet bilmez onlar aldanma yorulma
Sayfa başına dön Aşağa gitmek
Kullanıcı profilini gör http://rockforums.forumotion.com
 
Gripin Akorları
Önceki başlık Sonraki başlık Sayfa başına dön 
1 sayfadaki 1 sayfası
 Similar topics
-
» İsmail yk- Eskisi Gibi Gitar Akorları...

Bu forumun müsaadesi var:Bu forumdaki mesajlara cevap veremezsiniz
RoCK_ForumS :: TÜRK ROCK :: Türk Rock Şarkı Sözleri ve Akorlar-
Buraya geçin: