RoCK_ForumS

RoCK_ForumS'a Hoş GeLDiniZ
 
AnasayfaPortalliSSSAramaKayıt OlÜye ListesiKullanıcı GruplarıGiriş yap

Paylaş | 
 

 Avril Lavigne

Önceki başlık Sonraki başlık Aşağa gitmek 
YazarMesaj
RoCK_ForumS Yetkilisi
Admin
Admin
avatar

Mesaj Sayısı : 75
Yaş : 29
Kayıt tarihi : 14/07/07

MesajKonu: Avril Lavigne   Paz Tem. 15, 2007 6:40 pm

hit:
2542
singer:
Avril Lavigne
song:
Unwanted

akor:

Avril Lavigne-Unwanted

E5 - 022xxx

C5 - 0355xx

D5 - 0577xx

A/C# - 047xxx

A5 - 577xxx



E5 C5 D5 A/C# E5



Riff



E|-------------------------------------

B|-------------------------------------

G|------0--------0--------0------------

D|-2--------5--5-----7--7----------7---

A|-2--------3--3-----5--5-----7--7-----

E|-0--0-----------------------5--5-----





Riff Riff

All they did was walk over, start off by shaking your hands

Riff Riff

That's how it went, I had a smile on my face and I sat up straight

Riff Riff A5

Oh yeah yeah I wanted to know you I wanted to show you





E5 C5

You don't know me, don't ignore me

D5 A5 E5 C5 D5 A5

You don't want me there you just shut me out

E5 C5

You don't know me, don't ignore me

D5 A5 E5 C5

If you had your way you'd just shut me out

D5 C5 E5 C5 D5 A/C#

Make me go away





E5 C5 D5 A/C#

E5





Riff

Riff

(I'm so unwanted)





Riff Riff

No I just don't understand Why you won't talk to me

Riff Riff

It hurts I'm so unwanted from nothing Don't talk words against me





Riff Riff D5 A5

I wanted to know you, I wanted to show you

E5 C5

You don't know me, don't ignore me

D5 A5 E5 C5 D5 A5

You don't want me there you just shut me out

E5 C5

You don't know me, don't ignore me

D5 A5 E5 C5

If you had your way you'd just shut me out

D5 C5 E5 C5 D5 A/C# E5 C5 D5 A/C#

Make me go away, make me go away



E5 C5 D5 A/C# E5 C5 D5 A/C#

I tried to belong it didn't seem wrong, my head aches

E5 C5 D5 A/C# E5 C5 D5

It's been so long I'll write this song, if that's what it takes



D5 D5 D5



E5 C5

You don't know me, don't ignore me

D5 A5 E5 C5 D5 A5

You don't want me there you just shut me out

E5 C5

You don't know me, don't ignore me

D5 A5 E5 C5

If you had your way you'd just shut me out

D5 C5 E5

Make me go away







E5 C5

You don't know me, don't ignore me

D5 A5 E5 C5 D5 A5

You don't want me there you just shut me out

E5 C5

You don't know me, don't ignore me

D5 A5 E5 C5

If you had your way you'd just shut me out

D5 C5 E5 C5 D5 A/C# E5 C5 D5 A/C#

Make me go away, make me go away

E5 C5 D5 A/C# E5 C5 D5 A5

Make me go away
-------------------------------------------------------------------
id:1969
hit:5264
singer:avril lavigne
song:my happy ending

akor:

Intro:



E|-----------------------|

B|-7h8--7h8--7-----------|

G|-------------9--7p9--7-|

D|-----------------------|

A|-----------------------|

E|-----------------------|



So Much For My Happy Ending.



Bm G D A

Oh-Oh Oh-Oh Oh-Oh Oh-Oh

Bm G D A

Oh-Oh Oh-Oh Oh-Oh



Bm G D A

E|-0----0----0----0----3----3----3----3----2----2----2----2----0----0----0----

0---|

B|-3----3----3----3----3----3----3----3----3----3----3----3----2----2----2----

2---|

G|---4----4----4----4----0----0----0----0----2----2----2----2----2----2----2---

-2-|

D|-----------------------------------------------------------------------------

---|

A|-----------------------------------------------------------------------------

---|

E|-----------------------------------------------------------------------------

---|



Bm G

Lets talk this over; its not like we're dead.

D A

Was it something i did? Was it something you said?

Bm G

Don't leave me hanging in a city so dead.

D A

Held up so high on such a breakable thread.



G A G A

E|---------0--------------0--------------0--------------0-|

B|-----3-----3--------0-----0--------3-----3--------0-----|

G|---2---2-----2----2---2-----2----2---2-----2----2---2---|

D|--------------------------------------------------------|

A|----------------0-----------------------------0---------|

E|-3-----------------------------3------------------------|





G A

And you were all the things I thought I knew.

G A

And I thought we could be.







G D A

You were everything, everything that I wanted.

G D A

And we were meant to be, supposed to be, but we lost it.

G D A Bm

And all of the memories so close to me just fade away.

Em G

All this time you were pretending, so much for my happy ending.





Bm G D A

Oh-Oh Oh-Oh Oh-Oh Oh-Oh

Bm G D

Oh-Oh Oh-Oh Oh-Oh



A Bm G

You've got your dumb friends, I know what they say.

D A

They tell you I'm difficult, but so are they.

Bm G

But they don't know me, do they even know you?

D A

All the things you hide from me, all the shit that you do.



G A G A

E|---------0--------------0--------------0--------------0---9h10p9----|

B|-----3-----3--------0-----0--------3-----3--------0--------------10-|

G|---2---2-----2----2---2-----2----2---2-----2----2---2---------------|

D|--------------------------------------------------------------------|

A|----------------0-----------------------------0---------------------|

E|-3-----------------------------3------------------------------------|





G A

And you were all the things I thought I knew.

G A

And I thought we could be.







G D A

You were everything, everything that I wanted.

G D A

And we were meant to be, supposed to be, but we lost it.

G D A Bm

And all of the memories so close to me just fade away.

Em G

All this time you were pretending, so much for my happy ending.





A G

It's nice to know that you were there,

A

Thanks for acting like you cared,

G

And making me feel like I was the only one.

A Bm G

It's nice to know we had it all, thanks for watching as I fall,

A

And letting me know we were done.





G D A

He was everything, everything that I wanted.

G D A

And we were meant to be, supposed to be, but we lost it.

G D A Bm

And all of the memories so close to me just fade away.

Em G

All this time you were pretending, so much for my happy ending.
Sayfa başına dön Aşağa gitmek
Kullanıcı profilini gör http://rockforums.forumotion.com
RoCK_ForumS Yetkilisi
Admin
Admin
avatar

Mesaj Sayısı : 75
Yaş : 29
Kayıt tarihi : 14/07/07

MesajKonu: Geri: Avril Lavigne   Paz Tem. 15, 2007 6:41 pm

id:2907
hit:8269
singer:Avril Lavigne
song:nobody's home

akor:

Nobody's Home




Tuning: Standard EADGBe and a CAPO on 1st fret



Chords used:



Em- 022000

D- xx0232

C- x32010

G- 320033



Intro: (Ben Moody Plucking Riff at time 0:09)

Em D C

e|----------0--|----------0--|--------------------------|

B|------0------|------3------|----------0-----------1-0-|

G|-------------|----2---2----|------0-----------0-------|

D|--2-----2----|--0----------|----2---2-------2---2-----|

A|----2--------|-------------|--3-----------3-----------|

E|-------------|-------------|--------------------------|



Verse 1:

Em D C

I couldn't tell you why she felt that way, She felt it everyday.

E D

And I couldn't help her,

C

I just watched her make the same mistakes again.



Refrain 1:

Em

What's wrong, what's wrong now?

D

Too many, too many problems.

C C

Don't know where she belongs, where she belongs.



Chorus:

Em G D

She wants to go home, but nobody's home.

That's Where she lies, broken inside.

Em G D

There's no place to go, no place to go to dry her eyes.

Broken inside.





Verse 2:

Em D C

Open your eyes and look outside, find a reason why.

Em D C

You've been rejected, now you can't find what you left behind.



Refrain 2:

Em

Be strong, be strong now.

D

Too many, too many problems.

C

dont know where she belongs, where she belongs.



(Repeat Chorus)



Bridge:

Em

Her feelings she hides.

D

Her dreams she can't find.

C

She's losing her mind

She's falling behind.

Em

She can't find her place.

D

She's losing her faith

C

She's falling from grace.

She's all over the place. Yeah



(Repeat Chorus)



Outro:



Em G D

She's lost inside, lost inside...oh oh.

Em G D Em(Hold)

She's lost inside, lost inside...oh oh yeah.
Sayfa başına dön Aşağa gitmek
Kullanıcı profilini gör http://rockforums.forumotion.com
Barısha_RoCK
RoCK_ForumS Yenisi
RoCK_ForumS Yenisi
avatar

Mesaj Sayısı : 8
Kayıt tarihi : 19/07/07

MesajKonu: Geri: Avril Lavigne   Perş. Tem. 19, 2007 7:17 pm

çok saol güzel paylaşım
Sayfa başına dön Aşağa gitmek
Kullanıcı profilini gör
Sponsored content




MesajKonu: Geri: Avril Lavigne   

Sayfa başına dön Aşağa gitmek
 
Avril Lavigne
Önceki başlık Sonraki başlık Sayfa başına dön 
1 sayfadaki 1 sayfası
 Similar topics
-
» avril lavignenin giflik resimleri

Bu forumun müsaadesi var:Bu forumdaki mesajlara cevap veremezsiniz
RoCK_ForumS :: YABANCI ROCK :: Yabancı Rock Şarkı Sözleri ve Akorlar-
Buraya geçin: